小新樂器館新譜吉他論壇軟體小新吉他館fb
吉他教學 初學者必學15個吉他和弦
小新樂器館
 
Bubbly - Colbie Caillat  

資料上傳:aukvv121212        瀏覽次數:835

3 人評分   平均評分:4.3         曲譜上傳時間:2010-12-18 05:11:09


感謝您的使用,小新的吉他館永遠是您搜尋吉他譜的好幫手~~


Intro and Verses tab:

you can play it straight like this, or give a quick glissandro playing the A string first.

E-(5)--------(5)-------|-(5)--------(5)-------|The brackets R for the chorus.
B--5---5------5---5----|--5---5------5---5----|
G.-6---6------6---6----|--7---7------6---6---.|
D.-7----------6--------|--7----------7-------.|
A----------------------|----------------------|
E----------------------|----------------------|

Verse 1:

I've been awake for a while now
you've got me feelin like a child now
cause every time i see your bubbly face
i get the tinglies in a silly place


Same chords in the chorus:
*She arpeggios the intro chords, (and also includes the 5th fret on the High E with all
chords. This is the bracket in the intro)
*or lightly strum these chords

Chorus:
A
It starts in my toes
Amaj7
and I crinkle my nose
D A
where ever it goes i always know
A
that you make me smile
Amaj7
please stay for a while now
D
just take your time
A
where ever you go


Go back to the intro tab for this verse (but give it a bounce.)
Verse 2:

The rain is fallin on my window pane
but we are hidin in a safer place
under the covers stayin safe and warm
you give me feelings that i adore


Chorus:

They start in my toes
make me crinkle my nose
where ever it goes i always know
that you make me smile
please stay for a while now
just take your time
where ever you go






Bridge:
She plays this:

E--------------------|-------------------|-------------------|-------------------|-------------------|
B--5---5----5---5----|--7---7----7---7---|--9---9----9---9---|--7--7----9--9-----|---7---------------|



G.-6---6----6---6----|--7---7----7---7---|--9---9----9---9---|--7--7----9--9-----|---7---------------|
D.-6---6----6---6----|--7---7----7---7---|--9---9----9---9---|--0--0----0--0-----|---



7---------------|
A--------------------|-------------------|-------------------|-------------------|-------------------|
E--------------------|-------------------|-------------------|-------------------|-------------------|



Alternativley you could lightly strum/palm mute this:
Amaj7 D
What am i gonna say
E C#m
when you make me feel this way
D E
I just.......mmmmmm



Chorus:

Scat: Intro/Verses tab for 4 bars with your own 'doo wops' singing. and continue playing
into the 3rd verse...


Verse 3: Intro/Verses tab

I’ve been asleep for a while now
You tucked me in just like a child now
Cause every time you hold me in your arms
I'm comfortable enough to feel your warmth



Chorus:

It starts in my soul
And I lose all control
When you kiss my nose
The feelin shows
Cause you make me smile
Baby just take your time now
Holdin me ti-i-ight



Tag:
She plays:
E------9---------5-------|-----7----------5------|
B-----5-5-------5--5-----|----5-5--------5--5----|
G.--6----6-----6----6----|---7---7------6----6--.| x4



D.-7------7-0-6------6-0-|--7-----7--0-7------7-.|
A------------------------|-----------------------|
E------------------------|-----------------------|



Alternatively you could play this (OR intro/verse tabs, but arpeggio'd!)

A Amaj7 D/F# A
Where ever, where ever, where ever you go
A(no6) Amaj7(no7) D/F#(no3) A
Where ever, where ever, where ever you go…



A(no6) Amaj7(no7) D/F#(no3) A
Ooh wherever you go, I always know
A(no6) Amaj7(no7) D/F#(no3) A
Cause you make me smile, baby, just for a while...

That was my first TAB ever. I think I kicked butt.


【來源:http://tw.knowledge.yahoo.com/question/question?qid=1007112410830】 


 

 

給本歌譜評分:


小新吉他館 小新的樂器館
 
小新吉他館 小新的樂器館

  小新樂器館
推薦
小新樂器館-吉他特價
數百款烏克麗麗、吉他、樂器特價, 會員享1%紅利回饋!隔日全省宅配
www.sc.com.tw
烏克麗麗專賣sc.com.tw
數百款烏克麗麗、吉他、樂器特價, 會員享1%紅利回饋!隔日全省宅配
www.sc.com.tw

小新吉他館-Comet吉他專賣 |

商週推薦Comet 慧星吉他品牌!終身換弦免費,專業師博調弦距,好按不痛!
www.sc.com.tw

烏克麗麗專賣sc.com.tw
數百款烏克麗麗、吉他、樂器特價, 會員享1%紅利回饋!隔日全省宅配。
www.sc.com.tw
吉他專賣店-特賣會
電吉他、木吉他、烏克麗麗現貨齊 全省24h宅配到府,滿額免運費。
www.sc.com.tw
蘆洲學吉他烏克麗麗
新北市蘆洲區專業吉他、烏克麗麗、貝斯教學,每月只要2000元,一對一教學
報名專線:02-2282-6962

gita.com.tw

Anuenue 烏克麗麗專賣

 

DCMA免責聲明:   【通知、取下/著作權保護措施】
     目前線上人數:3

本網站無利用使用者上傳的資料直接營利,且在有著作權人通知網管有侵權資料要求移除時,將立即、也必須馬上移除任何會員上傳資料。
因「即時發表」運作方式所規限,故不能完全監察所有即時文章,若有發現問題,請聯絡我們(於24小時刪除)
著作權聲明 提供來源/黃沛聲律師  Web Design by JOJ Design.