小新樂器館新譜吉他論壇軟體小新吉他館fb
吉他教學 初學者必學15個吉他和弦
小新樂器館
 
擁抱 - 五月天  

資料上傳:admin        瀏覽次數:26997

37 人評分   平均評分:3.3         曲譜上傳時間:2010-02-19 08:18:00


感謝您的使用,小新的吉他館永遠是您搜尋吉他譜的好幫手~~


------------------------------------------------------------------------------
歌曲名:擁抱
歌手/樂隊:五月天
編配者(轉載來源):網絡
-------------------------------------------------------------------------------

F7m Em Dm7 C
e-----0----|-----0----|-----1----|-----0----|
B-------1--|-------0--|-------1--|-------1--| X2
G---2------|---0------|---2------|---2------|
D-3--------|----------|-0--------|----------|
A----------|----------|----------|-3--------|
E----------|-0--------|----------|----------|


F7m Em Dm7 C
脫下長日的假面 奔向夢幻的疆界
F7m Em Dm7 C
南瓜馬車的午夜 換上童話的玻璃鞋
F7m Em Dm7 C
讓我享受這感覺 我是孤傲的薔薇
F7m Em Dm7 C
讓我品嘗這滋味 紛亂世界的不了解
F7m Em Dm7 C
昨天太近 明天太遠 默默聆聽那黑夜
F7m Em Dm7 C
晚風吻盡 荷花葉 任我醉倒在池邊
F7m Em Dm7 C
等你清楚看見我的美 月光曬幹眼淚
F7m Em Dm7 C
那一個人........ 愛我
F7m Em Dm7 C
將我的手........ 緊握
F7m Em Dm7 C
抱緊我 吻我 喔 愛 別走

隱藏自己的疲倦 表達自己的狼狽
放縱自己的狂野 找尋自己的明天
像你要求的誓言 就算是你的謊言
我需要愛的慰藉 就算那愛已如潮水
 


 

 

給本歌譜評分:


小新吉他館 小新的樂器館
 
小新吉他館 小新的樂器館

  小新樂器館
推薦
小新樂器館-吉他特價
數百款烏克麗麗、吉他、樂器特價, 會員享1%紅利回饋!隔日全省宅配
www.sc.com.tw
烏克麗麗專賣sc.com.tw
數百款烏克麗麗、吉他、樂器特價, 會員享1%紅利回饋!隔日全省宅配
www.sc.com.tw

小新吉他館-Comet吉他專賣 |

商週推薦Comet 慧星吉他品牌!終身換弦免費,專業師博調弦距,好按不痛!
www.sc.com.tw

烏克麗麗專賣sc.com.tw
數百款烏克麗麗、吉他、樂器特價, 會員享1%紅利回饋!隔日全省宅配。
www.sc.com.tw
吉他專賣店-特賣會
電吉他、木吉他、烏克麗麗現貨齊 全省24h宅配到府,滿額免運費。
www.sc.com.tw
蘆洲學吉他烏克麗麗
新北市蘆洲區專業吉他、烏克麗麗、貝斯教學,每月只要2000元,一對一教學
報名專線:02-2282-6962

gita.com.tw

Anuenue 烏克麗麗專賣

 

DCMA免責聲明:   【通知、取下/著作權保護措施】
     目前線上人數:2

本網站無利用使用者上傳的資料直接營利,且在有著作權人通知網管有侵權資料要求移除時,將立即、也必須馬上移除任何會員上傳資料。
因「即時發表」運作方式所規限,故不能完全監察所有即時文章,若有發現問題,請聯絡我們(於24小時刪除)
著作權聲明 提供來源/黃沛聲律師  Web Design by JOJ Design.