小新樂器館新譜吉他論壇軟體小新吉他館fb
吉他教學 初學者必學15個吉他和弦
小新樂器館
 
稻香 - 周杰倫  

資料上傳:admin        瀏覽次數:4233

3 人評分   平均評分:4.3         曲譜上傳時間:2010-02-18 08:16:56


感謝您的使用,小新的吉他館永遠是您搜尋吉他譜的好幫手~~


------------------------------------------------------------------------------
歌曲名:稻香
歌手/樂隊:周杰倫
編配者(轉載來源):joshuanz1
-------------------------------------------------------------------------------
Intro
A E Fm# Cm# Bm E A
e||----------|-------|--------|----0--|----0--|----0--|--------------|
B||----0h2---|-------|----0---|---0---|-------|-------|-----0---0----|
G||-------2--|----1--|-----2--|-------|-------|-------|-------2---2--|X2
D||---2------|---2---|---2----|-------|---4---|---2---|---2---------2|
A||--0-------|-------|--------|--4----|--2----|-------|--0-----------|
E||----------|--0----|--2-----|-------|-------|--0----|--------------|



A E
對這個世界如果你有太多的抱怨
Fm# Cm#
跌倒了就不敢繼續往前走
Bm E A
為什人要這的脆弱 墮落

請你打開電視看看

A E Fm#
多少人為生命在努力勇敢的走下去
Cm#
我們是不是該知足
Bm E A
珍惜一切 就算沒有擁有

A E Fm# Cm#
還記得你說家是唯一的城堡 隨著稻香河流繼續奔跑
Bm E A
微微笑 小時候的夢我知道
E Fm# Cm#
不要哭讓螢火蟲帶著你逃跑 鄉間的歌謠永遠的依靠
Bm E A
回家吧 回到最初的美好

A E
不要這容易就想放棄 就像我說的
Fm# Cm#
追不到的夢想 換個夢不就得了
Bm E A
為自己的人生鮮豔上色 把心情塗上喜歡的顏色
E
笑一個吧 功成名就不是目的
Fm# Cm#
讓自己快樂快樂那也不是意義
Bm E A
童年的紙飛機 現在終於飛回我手裡
A E Fm#
真正的那快樂 赤腳在田裡追蜻蜓追到累了
Cm# Bm E
偷摘水果被蜜蜂給叮到怕了 誰在偷笑呢
A
我靠著稻草人吹著風唱著歌睡著了
A E
哦 哦 午後吉它在蟲鳴中更清脆
Fm# Cm#
哦 哦 陽光灑在路上就不怕心碎
Bm E A
珍惜一切 就算沒有擁有

A E Fm# Cm#
還記得你說家是唯一的城堡 隨著稻香河流繼續奔跑
Bm E A
微微笑 小時候的夢我知道
E Fm# Cm#
不要哭讓螢火蟲帶著你逃跑 鄉間的歌謠永遠的依靠
Bm E A
回家吧 回到最初的美好


e||--0---9-12-----0----9-12------0-----0---0---------||
B||---10------12-9--10------12-9----10--10--10-5--5--||
G||----------------------------------------------7-6~||
D||--------------------------------------------------||
A||--------------------------------------------------||
E||--------------------------------------------------||
 


 

 

給本歌譜評分:


小新吉他館 小新的樂器館
 
小新吉他館 小新的樂器館

  小新樂器館
推薦
小新樂器館-吉他特價
數百款烏克麗麗、吉他、樂器特價, 會員享1%紅利回饋!隔日全省宅配
www.sc.com.tw
烏克麗麗專賣sc.com.tw
數百款烏克麗麗、吉他、樂器特價, 會員享1%紅利回饋!隔日全省宅配
www.sc.com.tw

小新吉他館-Comet吉他專賣 |

商週推薦Comet 慧星吉他品牌!終身換弦免費,專業師博調弦距,好按不痛!
www.sc.com.tw

烏克麗麗專賣sc.com.tw
數百款烏克麗麗、吉他、樂器特價, 會員享1%紅利回饋!隔日全省宅配。
www.sc.com.tw
吉他專賣店-特賣會
電吉他、木吉他、烏克麗麗現貨齊 全省24h宅配到府,滿額免運費。
www.sc.com.tw
蘆洲學吉他烏克麗麗
新北市蘆洲區專業吉他、烏克麗麗、貝斯教學,每月只要2000元,一對一教學
報名專線:02-2282-6962

gita.com.tw

Anuenue 烏克麗麗專賣

 

DCMA免責聲明:   【通知、取下/著作權保護措施】
     目前線上人數:2

本網站無利用使用者上傳的資料直接營利,且在有著作權人通知網管有侵權資料要求移除時,將立即、也必須馬上移除任何會員上傳資料。
因「即時發表」運作方式所規限,故不能完全監察所有即時文章,若有發現問題,請聯絡我們(於24小時刪除)
著作權聲明 提供來源/黃沛聲律師  Web Design by JOJ Design.