小新樂器館新譜吉他論壇軟體小新吉他館fb
吉他教學 初學者必學15個吉他和弦
小新樂器館
 
爺爺泡的茶 - 周杰倫  

資料上傳:admin        瀏覽次數:709

2 人評分   平均評分:5         曲譜上傳時間:2010-02-18 07:06:56


感謝您的使用,小新的吉他館永遠是您搜尋吉他譜的好幫手~~


-------------------------------------------------------------------------------
歌曲名:爺爺泡的茶
歌手/樂隊:周杰倫
編配者(轉載來源): Edwin_CH(提供)
-------------------------------------------------------------------------------

Pluck pattern:
G Cadd9 Dsus4 D
E|---------3-------|---------3-------|----------3-----------------2--|
B|--------------3--|--------------3--|--------------------3-----------|
G|-----0-----------|-----0-----------|------2-------2--------2------|
D|------------------|------------------|-0-----------------------------|
A|------------------|-3---------------|--------------------------------|
E|-3---------------|------------------|--------------------------------|
Tempo: 1 & 2 & 3 & 4 & 1 & 2 & 3 & 4
Repeat

山泉 在地表蜿蜒
從很久很久以前
我有一張稚氣的臉
泉水滲透進礦層岩
爺爺栽種的樟木樹苗在上面

猶記得那年 在一個雨天
那七歲的我躲在屋
卻一直想去 爺爺抽著煙
說唐朝陸羽寫茶經三卷 流傳了千年

*那天 我翻閱字典 查什字眼
 形容一件事 很遙遠
 天邊 是否在海角 對面
 直到九歲才知道浪費時間

 這茶桌樟木的橫切面
 年輪有二十三圈
 鏡頭的另一邊跳接我成熟的臉
 經過這些年 爺爺的手繭
 泡在水會有茶色蔓延*

#爺爺泡的茶 有一種味道叫做家
 (沒法挑剔它 口感味覺還不差)
 陸羽泡的茶 聽說名和利都不拿
 (他牽著一匹瘦馬走天涯)
 爺爺泡的茶 有一種味道叫做家
 (他滿頭白 喝茶時不準說話)
 陸羽泡的茶 像幅潑墨的山水畫
 (唐朝千年的風沙 現在還在)#

REPEAT*#

啦啦 啦啦啦啦啦 啦啦 啦啦
啦啦啦啦啦 啦啦 啦啦
啦啦啦啦啦 啦啦 啦啦
啦啦啦啦啦

REPEAT##
 


 

 

給本歌譜評分:


小新吉他館 小新的樂器館
 
小新吉他館 小新的樂器館

  小新樂器館
推薦
小新樂器館-吉他特價
數百款烏克麗麗、吉他、樂器特價, 會員享1%紅利回饋!隔日全省宅配
www.sc.com.tw
烏克麗麗專賣sc.com.tw
數百款烏克麗麗、吉他、樂器特價, 會員享1%紅利回饋!隔日全省宅配
www.sc.com.tw

小新吉他館-Comet吉他專賣 |

商週推薦Comet 慧星吉他品牌!終身換弦免費,專業師博調弦距,好按不痛!
www.sc.com.tw

烏克麗麗專賣sc.com.tw
數百款烏克麗麗、吉他、樂器特價, 會員享1%紅利回饋!隔日全省宅配。
www.sc.com.tw
吉他專賣店-特賣會
電吉他、木吉他、烏克麗麗現貨齊 全省24h宅配到府,滿額免運費。
www.sc.com.tw
蘆洲學吉他烏克麗麗
新北市蘆洲區專業吉他、烏克麗麗、貝斯教學,每月只要2000元,一對一教學
報名專線:02-2282-6962

gita.com.tw

Anuenue 烏克麗麗專賣

 

DCMA免責聲明:   【通知、取下/著作權保護措施】
     目前線上人數:1

本網站無利用使用者上傳的資料直接營利,且在有著作權人通知網管有侵權資料要求移除時,將立即、也必須馬上移除任何會員上傳資料。
因「即時發表」運作方式所規限,故不能完全監察所有即時文章,若有發現問題,請聯絡我們(於24小時刪除)
著作權聲明 提供來源/黃沛聲律師  Web Design by JOJ Design.