小新樂器館新譜吉他論壇軟體小新吉他館fb
吉他教學 初學者必學15個吉他和弦
小新樂器館
 
現在我很幸福 - A-Lin  

資料上傳:小新        瀏覽次數:1949

3 人評分   平均評分:5         曲譜上傳時間:2010-03-16 07:21:26


感謝您的使用,小新的吉他館永遠是您搜尋吉他譜的好幫手~~


現在我很幸福
詞:鄔裕康 曲:施佳陽 唱:A-Lin(黃麗玲)【以前,以後】
Key:D轉B轉C Play:C轉A轉#A Capo:2
採譜者:叛逆潔

| C | C | G/B | G/B |
他的手掌有種粗糙的體貼 他在我需要時候出現身邊
| Am | Am7/G | Dm | G |
被你傷的那些 崩潰眼淚 多虧他無私的奉陪

| C | C | G/B | G/B |
哪天要是和你真的再見面 誰都不要再提醒那一段從前
| Am | Am7/G | Dm7 | E |
有些事不面對 反而安心安全 你無權再動搖我的世界

(轉Key)
| A | A |
*現在我有了幸福 有人照顧 應該知足
| #Fm | #Fm |
你不像他 從不讓我哭
| D | #Cm #Fm |
可是我越想投入 越是生疏 抱的再緊
| Bm | E |
依舊止不住那流失的溫度
| A | A |
※現在我不停忙碌 不斷讓步 想看清楚
| #Fm | #Fm |
你不像他 把我當成全部
| D | #Cm #Fm |
可是愛有時善良有時殘酷 我要如何
| Bm E | A |
愛他像愛你那樣義無反顧

| C | C | G/B | G/B |
哪天要是和你真的再見面 我不會提到最後和他的一切
| Am | Am7/G | Dm7 | E |
面對不愛的人 我終於諒解了 曾經你用無言畫的句點

Repeat *,※,*,※,(升Key)à※



#Fm 第二格封閉

E-----|---1---|-----|-------|-----|
B-----|---1---|-----|-------|-----|
G-----|---1---|-----|-------|-----|
D-----|---1---|-----|---4---|-----|
A-----|---1---|-----|---3---|-----|
E-----|---1---|-----|-------|-----|o


#Cm 第四格封閉
E-----|----|----|--1--|-------|-------|
B-----|----|----|--1--|---2---|-------|
G-----|----|----|--1--|-------|---4---|
D-----|----|----|--1--|-------|---3---|
A-----|----|----|--1--|-------|-------|o
E-----|----|----|--1--|-------|-------|



 


 

 

給本歌譜評分:


小新吉他館 小新的樂器館
 
小新吉他館 小新的樂器館

  小新樂器館
推薦
小新樂器館-吉他特價
數百款烏克麗麗、吉他、樂器特價, 會員享1%紅利回饋!隔日全省宅配
www.sc.com.tw
烏克麗麗專賣sc.com.tw
數百款烏克麗麗、吉他、樂器特價, 會員享1%紅利回饋!隔日全省宅配
www.sc.com.tw

小新吉他館-Comet吉他專賣 |

商週推薦Comet 慧星吉他品牌!終身換弦免費,專業師博調弦距,好按不痛!
www.sc.com.tw

烏克麗麗專賣sc.com.tw
數百款烏克麗麗、吉他、樂器特價, 會員享1%紅利回饋!隔日全省宅配。
www.sc.com.tw
吉他專賣店-特賣會
電吉他、木吉他、烏克麗麗現貨齊 全省24h宅配到府,滿額免運費。
www.sc.com.tw
蘆洲學吉他烏克麗麗
新北市蘆洲區專業吉他、烏克麗麗、貝斯教學,每月只要2000元,一對一教學
報名專線:02-2282-6962

gita.com.tw

Anuenue 烏克麗麗專賣

 

DCMA免責聲明:   【通知、取下/著作權保護措施】
     目前線上人數:3

本網站無利用使用者上傳的資料直接營利,且在有著作權人通知網管有侵權資料要求移除時,將立即、也必須馬上移除任何會員上傳資料。
因「即時發表」運作方式所規限,故不能完全監察所有即時文章,若有發現問題,請聯絡我們(於24小時刪除)
著作權聲明 提供來源/黃沛聲律師  Web Design by JOJ Design.