小新樂器館新譜吉他論壇軟體小新吉他館fb
吉他教學 初學者必學15個吉他和弦
小新樂器館
 
把悲傷留給自己(完整版) - 陳昇  

資料上傳:小新        瀏覽次數:1586

本譜目前無人評分         曲譜上傳時間:2010-03-09 03:19:13


感謝您的使用,小新的吉他館永遠是您搜尋吉他譜的好幫手~~


陳昇 - 把悲傷留給自己
Capo : 2
----------------------------------------------------------------------------------------
C Em
能不能讓我 陪著你走
E||----------0---------|----------0--------|----------0--------|----------0--------|
B||------1-------1-----|------1-------1----|------1-------1----|------0-------0----|
G||----0---0---0---0---|----0---0---0---0--|----0---0---0---0--|----0---0---0---0--|
D||--------------------|-------------------|-------------------|-------------------|
A||--3-----------------|--3----------------|--3----------------|--2----------------|
E||--------------------|-------------------|-------------------|-------------------|
Am Em Dm Am
即然你說 留不住你 回去的路 有些黑暗
-------------0---------|----------0--------|----------1--------|----------0--------|
---------1-------1-----|------0-------0----|------3-------3----|------1-------1----|
-------2---2---2---2---|----0---0---0---0--|----2---2---2---2--|----2---2---2---2--|
-----------------------|-------------------|-------------------|-------------------|
-----0-----------------|--2----------------|--0----------------|--0----------------|
-----------------------|-------------------|-------------------|-------------------|
Dm G
擔心讓你 一個人走
-------------1---------|----------0--------|----------0--------|
---------3-------3-----|------0-------0----|------0-------0----|
-------2---2---2---2---|----0---0---0---0--|----0---0---0---0--|
-----------------------|-------------------|-------------------|
-----0-----------------|--2----------------|--2----------------|
-----------------------|-------------------|-------------------|

C Em
我想是因為 我不夠溫柔
E||------------0--------|----------0--------|
B||--------1-------1----|------0-------0----|
G||------0---0---0---0--|----0---0---0---0--|
D||---------------------|-------------------|
A||----3----------------|--2----------------|
E||---------------------|-------------------|
Am Em Dm Am
不能分擔 你的憂愁 如果這樣 說不出口
--------------0---------|----------0--------|----------1--------|----------0--------|
----------1-------1-----|------0-------0----|------3-------3----|------1-------1----|
--------2---2---2---2---|----0---0---0---0--|----2---2---2---2--|----2---2---2---2--|
------------------------|-------------------|-------------------|-------------------|
------0-----------------|--2----------------|--0----------------|--0----------------|
------------------------|-------------------|-------------------|-------------------|
Dm G G7
就把遺憾 放在心中
-------------1---------|----------0--------|----------1--------|
---------3-------3-----|------0-------0----|------0-------0----|
-------2---2---2---2---|----0---0---0---0--|----0---0---0---0--|
-----------------------|-------------------|-------------------|
-----0-----------------|--2----------------|--2----------------|
-----------------------|-------------------|-------------------|


Dm Em Dm Am
把我的悲傷 留給自己 你的美麗 讓你帶走
E||-----------1--------|----------0--------|----------1--------|----------0--------|
B||-------3-------3----|------0-------0----|------3-------3----|------1-------1----|
G||-----2---2---2---2--|----0---0---0---0--|----2---2---2---2--|----2---2---2---2--|
D||--------------------|-------------------|-------------------|-------------------|
A||---0----------------|--2----------------|--0----------------|--0----------------|
E||--------------------|-------------------|-------------------|-------------------|
Am C Dm G
從此以後 我再沒有 快樂起來 的理由
-------------0---------|----------0--------|----------1--------|----------0--------|
---------1-------1-----|------1-------1----|------3-------3----|------0-------0----|
-------2---2---2---2---|----0---0---0---0--|----2---2---2---2--|----0---0---0---0--|
-----------------------|-------------------|-------------------|-------------------|
-----0-----------------|--3----------------|--0----------------|--2----------------|
-----------------------|-------------------|-------------------|-------------------|
Dm Em Dm Am
把我的悲傷 留給自己 你的美麗 讓你帶走
E||-----------1--------|----------0--------|----------1--------|----------0--------|
B||-------3-------3----|------0-------0----|------3-------3----|------1-------1----|
G||-----2---2---2---2--|----0---0---0---0--|----2---2---2---2--|----2---2---2---2--|
D||--------------------|-------------------|-------------------|-------------------|
A||---0----------------|--2----------------|--0----------------|--0----------------|
E||--------------------|-------------------|-------------------|-------------------|
Am C Dm G C
我想我可以 忍住悲傷 可不可以 妳也會想 起我
-------------0---------|----------0--------|----------1--------|----------0--------|----------0--------|
---------1-------1-----|------1-------1----|------3-------3----|------0-------0----|------1-------1----|
-------2---2---2---2---|----0---0---0---0--|----2---2---2---2--|----0---0---0---0--|----0---0---0---0--|
-----------------------|-------------------|-------------------|-------------------|-------------------|
-----0-----------------|--3----------------|--0----------------|--2----------------|--3----------------|
-----------------------|-------------------|-------------------|-------------------|-------------------|


C Em
是不是可以 牽你的手來
E||------------0--------|----------0--------|
B||--------1-------1----|------0-------0----|
G||------0---0---0---0--|----0---0---0---0--|
D||---------------------|-------------------|
A||----3----------------|--2----------------|
E||---------------------|-------------------|
Am Em Dm Am
從來沒有 這樣要求 怕你難過 轉身就走
-------------0---------|----------0--------|----------1--------|----------0--------|
---------1-------1-----|------0-------0----|------3-------3----|------1-------1----|
-------2---2---2---2---|----0---0---0---0--|----2---2---2---2--|----2---2---2---2--|
-----------------------|-------------------|-------------------|-------------------|
-----0-----------------|--2----------------|--0----------------|--0----------------|
-----------------------|-------------------|-------------------|-------------------|
Dm G G7
那就這樣吧 我會了解的
-------------1---------|----------0--------|----------1--------|
---------3-------3-----|------0-------0----|------0-------0----|
-------2---2---2---2---|----0---0---0---0--|----0---0---0---0--|
-----------------------|-------------------|-------------------|
-----0-----------------|--2----------------|--2----------------|
-----------------------|-------------------|-------------------|


Dm Em Dm Am
把我的悲傷 留給自己 你的美麗 讓你帶走
E||-----------1--------|----------0--------|----------1--------|----------0--------|
B||-------3-------3----|------0-------0----|------3-------3----|------1-------1----|
G||-----2---2---2---2--|----0---0---0---0--|----2---2---2---2--|----2---2---2---2--|
D||--------------------|-------------------|-------------------|-------------------|
A||---0----------------|--2----------------|--0----------------|--0----------------|
E||--------------------|-------------------|-------------------|-------------------|
Am C Dm G
從此以後 我再沒有 快樂起來 的理由
-------------0---------|----------0--------|----------1--------|----------0--------|
---------1-------1-----|------1-------1----|------3-------3----|------0-------0----|
-------2---2---2---2---|----0---0---0---0--|----2---2---2---2--|----0---0---0---0--|
-----------------------|-------------------|-------------------|-------------------|
-----0-----------------|--3----------------|--0----------------|--2----------------|
-----------------------|-------------------|-------------------|-------------------|
Dm Em Dm Am
我想我可以 忍住悲傷 假裝生命中 沒有你
E||-----------1--------|----------0--------|----------1--------|----------0--------|
B||-------3-------3----|------0-------0----|------3-------3----|------1-------1----|
G||-----2---2---2---2--|----0---0---0---0--|----2---2---2---2--|----2---2---2---2--|
D||--------------------|-------------------|-------------------|-------------------|
A||---0----------------|--2----------------|--0----------------|--0----------------|
E||--------------------|-------------------|-------------------|-------------------|
Am C Dm G
從此以後 我在這裡 日夜等待 你的消息
-------------0---------|----------0--------|----------1--------|----------0--------|----------0--------|
---------1-------1-----|------1-------1----|------3-------3----|------0-------0----|------0-------0----|
-------2---2---2---2---|----0---0---0---0--|----2---2---2---2--|----0---0---0---0--|----0---0---0---0--|
-----------------------|-------------------|-------------------|-------------------|-------------------|
-----0-----------------|--3----------------|--0----------------|--2----------------|--2----------------|
-----------------------|-------------------|-------------------|-------------------|-------------------|


C Em
能不能讓我 陪著你走
E||------------0--------|----------0--------|
B||--------1-------1----|------0-------0----|
G||------0---0---0---0--|----0---0---0---0--|
D||---------------------|-------------------|
A||----3----------------|--2----------------|
E||---------------------|-------------------|
Am Em Dm Am
即然你說 留不住你 無論你在 天涯海角
-------------0---------|----------0--------|----------1--------|----------0--------|
---------1-------1-----|------0-------0----|------3-------3----|------1-------1----|
-------2---2---2---2---|----0---0---0---0--|----2---2---2---2--|----2---2---2---2--|
-----------------------|-------------------|-------------------|-------------------|
-----0-----------------|--2----------------|--0----------------|--0----------------|
-----------------------|-------------------|-------------------|-------------------|
Dm G C
是不是你 偶然會想 起我
-------------1---------|----------0--------|----------0--------||
---------3-------3-----|------0-------0----|------1-------1----||
-------2---2---2---2---|----0---0---0---0--|----0---0---0---0--||
-----------------------|-------------------|-------------------||
-----0-----------------|--2----------------|--3----------------||
-----------------------|-------------------|-------------------||
Dm G C
可不可以 你也會想 起我
-------------1---------|----------0--------|----------0--------||
---------3-------3-----|------0-------0----|------1-------1----||
-------2---2---2---2---|----0---0---0---0--|----0---0---0---0--||
-----------------------|-------------------|-------------------||
-----0-----------------|--2----------------|--3----------------||
-----------------------|-------------------|-------------------|| 


 

 

給本歌譜評分:


小新吉他館 小新的樂器館
 
小新吉他館 小新的樂器館

  小新樂器館
推薦
小新樂器館-吉他特價
數百款烏克麗麗、吉他、樂器特價, 會員享1%紅利回饋!隔日全省宅配
www.sc.com.tw
烏克麗麗專賣sc.com.tw
數百款烏克麗麗、吉他、樂器特價, 會員享1%紅利回饋!隔日全省宅配
www.sc.com.tw

小新吉他館-Comet吉他專賣 |

商週推薦Comet 慧星吉他品牌!終身換弦免費,專業師博調弦距,好按不痛!
www.sc.com.tw

烏克麗麗專賣sc.com.tw
數百款烏克麗麗、吉他、樂器特價, 會員享1%紅利回饋!隔日全省宅配。
www.sc.com.tw
吉他專賣店-特賣會
電吉他、木吉他、烏克麗麗現貨齊 全省24h宅配到府,滿額免運費。
www.sc.com.tw
蘆洲學吉他烏克麗麗
新北市蘆洲區專業吉他、烏克麗麗、貝斯教學,每月只要2000元,一對一教學
報名專線:02-2282-6962

gita.com.tw

Anuenue 烏克麗麗專賣

 

DCMA免責聲明:   【通知、取下/著作權保護措施】
     目前線上人數:2

本網站無利用使用者上傳的資料直接營利,且在有著作權人通知網管有侵權資料要求移除時,將立即、也必須馬上移除任何會員上傳資料。
因「即時發表」運作方式所規限,故不能完全監察所有即時文章,若有發現問題,請聯絡我們(於24小時刪除)
著作權聲明 提供來源/黃沛聲律師  Web Design by JOJ Design.