小新樂器館新譜吉他論壇軟體小新吉他館fb
吉他教學 初學者必學15個吉他和弦
小新樂器館
 
永遠的第一天 - 王力宏  

資料上傳:admin        瀏覽次數:718

本譜目前無人評分         曲譜上傳時間:2010-02-19 07:19:59


感謝您的使用,小新的吉他館永遠是您搜尋吉他譜的好幫手~~


-------------------------------------------------------------------------------
歌曲名:永遠的第一天
歌手/樂隊:王力宏
編配者(轉載來源):網絡
-------------------------------------------------------------------------------


E||--------4--5--------0--2--|-----------0----------|
B||--2--3-----------2--------|--------0-------------|
G||--------------4-----------|--1--2----------------|
D||--------------------------|----------------------|
A||--------------------------|----------------------|
E||--------------------------|----------------------|



--------------------------|----------------------|-----------0------------|
--------------------------|----------------------|--------------0---------|
--------1--2--------------|----------------------|--------2------------2--|
-----0--------------2--4--|-----------2----------|--0--2------------------|
--4-----------2--4--------|-----0--2-------------|------------------------|
--------------------------|--4-------------------|------------------------|



-------------------|
-------------------|
--2----------------|
-------------------|
-------------------|
-------------------|


A E F#m A D
深夜 機場冷清好安靜 我終於看見了
A A Bm B7 E
穿著風衣 提著行李 聽著MIDI 走來走去
A E F#m A D
回憶 傳進心全是 我走過去抱緊
A A Bm B7 E
的聲音 的笑容 的淚滴 回到我懷
F#m C#m A D A
答應我 今天飛來 帶著你取來的真愛
D E Bm B7 E
就飛過大海 oh~ 帶愛情回來 Yah~

A E F#m A
今天看見永遠的第一天 終於實現我和的諾言
D A Bm D
時間將一切拉遠 愛在心沒有改變
A E F#m A
今天看見愛飛過地平線 當我說完我對的誓言
D A Bm E7
這是另一個起點 我一定愛到永遠 oh~

A E F#m A D
回憶 傳進心全是 我走過去抱緊
A A Bm B7 E
的聲音 的笑容 的淚滴 回到我懷
F#m C#m A D A
答應我 今天飛來 我要在這一秒說
Bm E B7 E
I Love~I Love~ I Love~ You 說永遠不分開

A E F#m A E
今天看見永遠的第一天 oh~ 終於實現我和的諾言 woh~
D A Bm E7
時間將一切拉遠 愛在心沒有改變 Yah~~~
A E Bm E
woo ~ 第一天看見~ 愛的第一天~

A E F#m A
(今天看見)今天看見永遠的第一天 終於實現我和的諾言
D A Bm E7
時間將一切拉遠 愛在心沒有改變 woh~~

A E F#m A
今天看見愛飛過地平線 oh~ 當我說完我對的誓言
D A Bm A
這是另一個紀念 我一定愛到永遠 到永遠
 


 

 

給本歌譜評分:


小新吉他館 小新的樂器館
 
小新吉他館 小新的樂器館

  小新樂器館
推薦
小新樂器館-吉他特價
數百款烏克麗麗、吉他、樂器特價, 會員享1%紅利回饋!隔日全省宅配
www.sc.com.tw
烏克麗麗專賣sc.com.tw
數百款烏克麗麗、吉他、樂器特價, 會員享1%紅利回饋!隔日全省宅配
www.sc.com.tw

小新吉他館-Comet吉他專賣 |

商週推薦Comet 慧星吉他品牌!終身換弦免費,專業師博調弦距,好按不痛!
www.sc.com.tw

烏克麗麗專賣sc.com.tw
數百款烏克麗麗、吉他、樂器特價, 會員享1%紅利回饋!隔日全省宅配。
www.sc.com.tw
吉他專賣店-特賣會
電吉他、木吉他、烏克麗麗現貨齊 全省24h宅配到府,滿額免運費。
www.sc.com.tw
蘆洲學吉他烏克麗麗
新北市蘆洲區專業吉他、烏克麗麗、貝斯教學,每月只要2000元,一對一教學
報名專線:02-2282-6962

gita.com.tw

Anuenue 烏克麗麗專賣

 

DCMA免責聲明:   【通知、取下/著作權保護措施】
     目前線上人數:1

本網站無利用使用者上傳的資料直接營利,且在有著作權人通知網管有侵權資料要求移除時,將立即、也必須馬上移除任何會員上傳資料。
因「即時發表」運作方式所規限,故不能完全監察所有即時文章,若有發現問題,請聯絡我們(於24小時刪除)
著作權聲明 提供來源/黃沛聲律師  Web Design by JOJ Design.